0
SECTION
2
HEADER
9
$INSUNITS
70
1
9
$ACADVER
1
AC1014
9
$HANDSEED
5
FFFF
0
ENDSEC
0
SECTION
2
TABLES
0
TABLE
2
VPORT
5
8
100
AcDbSymbolTable
0
ENDTAB
0
TABLE
2
LTYPE
5
5
100
AcDbSymbolTable
0
LTYPE
5
14
100
AcDbSymbolTableRecord
100
AcDbLinetypeTableRecord
2
BYBLOCK
70
0
0
LTYPE
5
15
100
AcDbSymbolTableRecord
100
AcDbLinetypeTableRecord
2
BYLAYER
70
0
0
ENDTAB
0
TABLE
2
LAYER
5
2
100
AcDbSymbolTable
70
2
0
LAYER
5
50
100
AcDbSymbolTableRecord
100
AcDbLayerTableRecord
2
0
70
0
6
CONTINUOUS
0
ENDTAB
0
TABLE
2
STYLE
5
3
100
AcDbSymbolTable
70
1
0
STYLE
5
11
100
AcDbSymbolTableRecord
100
AcDbTextStyleTableRecord
2
STANDARD
70
0
0
ENDTAB
0
TABLE
2
VIEW
5
6
100
AcDbSymbolTable
70
0
0
ENDTAB
0
TABLE
2
UCS
5
7
100
AcDbSymbolTable
70
0
0
ENDTAB
0
TABLE
2
APPID
5
9
100
AcDbSymbolTable
70
2
0
APPID
5
12
100
AcDbSymbolTableRecord
100
AcDbRegAppTableRecord
2
ACAD
70
0
0
ENDTAB
0
TABLE
2
DIMSTYLE
5
A
100
AcDbSymbolTable
70
1
0
ENDTAB
0
TABLE
2
BLOCK_RECORD
5
1
100
AcDbSymbolTable
70
1
0
BLOCK_RECORD
5
1F
100
AcDbSymbolTableRecord
100
AcDbBlockTableRecord
2
*MODEL_SPACE
0
BLOCK_RECORD
5
1B
100
AcDbSymbolTableRecord
100
AcDbBlockTableRecord
2
*PAPER_SPACE
0
ENDTAB
0
ENDSEC
0
SECTION
2
BLOCKS
0
BLOCK
5
20
100
AcDbEntity
100
AcDbBlockBegin
2
*MODEL_SPACE
0
ENDBLK
5
21
100
AcDbEntity
100
AcDbBlockEnd
0
BLOCK
5
1C
100
AcDbEntity
100
AcDbBlockBegin
2
*PAPER_SPACE
0
ENDBLK
5
1D
100
AcDbEntity
100
AcDbBlockEnd
0
ENDSEC
0
SECTION
2
ENTITIES
0
ARC
5
100
100
AcDbEntity
8
0
100
AcDbCircle
10
-45.486459396414389
20
-81.363737662235195
30
0
40
0.1250000000000086
100
AcDbArc
50
-134.99999999999309
51
45.000000000004604
0
LINE
5
101
100
AcDbEntity
8
0
100
AcDbLine
10
-45.574847744062701
20
-81.452126009883528
30
0
11
-45.766574985773936
21
-81.452126009883543
31
0
0
LINE
5
102
100
AcDbEntity
8
0
100
AcDbLine
10
-45.766574985773936
20
-81.452126009883543
30
0
11
-45.766574985773943
21
-84.452126009883514
31
0
0
LINE
5
103
100
AcDbEntity
8
0
100
AcDbLine
10
-45.766574985773943
20
-84.452126009883514
30
0
11
-45.574847744062694
21
-84.452126009883514
31
0
0
ARC
5
104
100
AcDbEntity
8
0
100
AcDbCircle
10
-45.486459396414382
20
-84.540514357531833
30
0
40
0.12499999999999278
100
AcDbArc
50
-44.999999999983871
51
134.99999999999773
0
LINE
5
105
100
AcDbEntity
8
0
100
AcDbLine
10
-45.398071048766042
20
-84.628902705180124
30
0
11
-45.398071048766028
21
-86.608682647920233
31
0
0
ARC
5
106
100
AcDbEntity
8
0
100
AcDbCircle
10
-45.486459396414361
20
-86.697070995568538
30
0
40
0.12500000000000069
100
AcDbArc
50
-135
51
44.999999999990784
0
LINE
5
107
100
AcDbEntity
8
0
100
AcDbLine
10
-45.57484774406268
20
-86.785459343216857
30
0
11
-45.766574985773893
21
-86.785459343216857
31
0
0
LINE
5
108
100
AcDbEntity
8
0
100
AcDbLine
10
-45.766574985773893
20
-86.785459343216857
30
0
11
-45.7665749857739
21
-89.785459343216857
31
0
0
LINE
5
109
100
AcDbEntity
8
0
100
AcDbLine
10
-45.7665749857739
20
-89.785459343216857
30
0
11
-45.574847744062666
21
-89.785459343216857
31
0
0
ARC
5
110
100
AcDbEntity
8
0
100
AcDbCircle
10
-45.486459396414354
20
-89.873847690865162
30
0
40
0.12499999999999674
100
AcDbArc
50
-44.999999999997712
51
135.0000000000023
0
LINE
5
111
100
AcDbEntity
8
0
100
AcDbLine
10
-45.398071048766028
20
-89.962236038513481
30
0
11
-45.398071048765999
21
-94.1187926765502
31
0
0
LINE
5
112
100
AcDbEntity
8
0
100
AcDbLine
10
-45.398071048765999
20
-94.1187926765502
30
0
11
-20.012244277113059
21
-94.118792676550186
31
0
0
LINE
5
113
100
AcDbEntity
8
0
100
AcDbLine
10
-20.012244277113059
20
-94.118792676550186
30
0
11
-20.012244277113066
21
-77.618792676550186
31
0
0
LINE
5
114
100
AcDbEntity
8
0
100
AcDbLine
10
-20.012244277113066
20
-77.618792676550186
30
0
11
-45.398071048766084
21
-77.618792676550186
31
0
0
LINE
5
115
100
AcDbEntity
8
0
100
AcDbLine
10
-45.398071048766084
20
-77.618792676550186
30
0
11
-45.39807104876607
21
-81.275349314586862
31
0
0
ARC
5
116
100
AcDbEntity
8
0
100
AcDbCircle
10
-21.257189262798079
20
-79.372924013941244
30
0
40
0.12500000000000069
100
AcDbArc
50
134.99999999999886
51
314.99999999999881
0
LINE
5
117
100
AcDbEntity
8
0
100
AcDbLine
10
-21.345577610446394
20
-79.284535666292925
30
0
11
-21.345577610446394
21
-79.023915828539742
31
0
0
ARC
5
118
100
AcDbEntity
8
0
100
AcDbCircle
10
-21.257189262798072
20
-78.935527480891423
30
0
40
0.12500000000000266
100
AcDbArc
50
45.000000000008065
51
224.99999999999883
0
LINE
5
119
100
AcDbEntity
8
0
100
AcDbLine
10
-21.168800915149763
20
-78.84713913324309
30
0
11
-20.855687639076365
21
-78.847139133243104
31
0
0
ARC
5
120
100
AcDbEntity
8
0
100
AcDbCircle
10
-20.767299291428049
20
-78.935527480891423
30
0
40
0.12500000000000266
100
AcDbArc
50
-45
51
134.99999999999886
0
LINE
5
121
100
AcDbEntity
8
0
100
AcDbLine
10
-20.67891094377973
20
-79.023915828539742
30
0
11
-20.67891094377973
21
-79.284535666292925
31
0
0
ARC
5
122
100
AcDbEntity
8
0
100
AcDbCircle
10
-20.767299291428049
20
-79.372924013941244
30
0
40
0.12500000000000266
100
AcDbArc
50
-135
51
45
0
LINE
5
123
100
AcDbEntity
8
0
100
AcDbLine
10
-20.855687639076368
20
-79.461312361589563
30
0
11
-21.168800915149763
21
-79.461312361589563
31
0
0
ARC
5
124
100
AcDbEntity
8
0
100
AcDbCircle
10
-22.100632624761392
20
-89.807897767222059
30
0
40
0.12500000000001057
100
AcDbArc
50
-134.99999999998619
51
45.000000000008065
0
LINE
5
125
100
AcDbEntity
8
0
100
AcDbLine
10
-22.189020972409697
20
-89.896286114870406
30
0
11
-22.449640810162883
21
-89.896286114870392
31
0
0
ARC
5
126
100
AcDbEntity
8
0
100
AcDbCircle
10
-22.538029157811202
20
-89.807897767222073
30
0
40
0.12500000000000266
100
AcDbArc
50
135
51
315
0
LINE
5
127
100
AcDbEntity
8
0
100
AcDbLine
10
-22.626417505459521
20
-89.719509419573754
30
0
11
-22.626417505459521
21
-87.073062810167031
31
0
0
ARC
5
128
100
AcDbEntity
8
0
100
AcDbCircle
10
-22.538029157811195
20
-86.984674462518726
30
0
40
0.12500000000001057
100
AcDbArc
50
45.000000000008065
51
224.99999999999309
0
LINE
5
129
100
AcDbEntity
8
0
100
AcDbLine
10
-22.449640810162887
20
-86.896286114870392
30
0
11
-22.189020972409701
21
-86.896286114870392
31
0
0
ARC
5
130
100
AcDbEntity
8
0
100
AcDbCircle
10
-22.100632624761381
20
-86.984674462518711
30
0
40
0.12500000000000266
100
AcDbArc
50
-45.000000000004633
51
135
0
LINE
5
131
100
AcDbEntity
8
0
100
AcDbLine
10
-22.012244277113062
20
-87.073062810167045
30
0
11
-22.012244277113084
21
-89.719509419573725
31
0
0
ARC
5
132
100
AcDbEntity
8
0
100
AcDbCircle
10
-22.100632624761392
20
-84.47456443388873
30
0
40
0.1250000000000086
100
AcDbArc
50
-134.99999999999079
51
45.000000000013813
0
LINE
5
133
100
AcDbEntity
8
0
100
AcDbLine
10
-22.189020972409697
20
-84.562952781537064
30
0
11
-22.449640810162887
21
-84.562952781537064
31
0
0
ARC
5
134
100
AcDbEntity
8
0
100
AcDbCircle
10
-22.538029157811202
20
-84.474564433888744
30
0
40
0.12500000000000266
100
AcDbArc
50
135
51
314.99999999999881
0
LINE
5
135
100
AcDbEntity
8
0
100
AcDbLine
10
-22.626417505459521
20
-84.386176086240425
30
0
11
-22.626417505459521
21
-81.739729476833702
31
0
0
ARC
5
136
100
AcDbEntity
8
0
100
AcDbCircle
10
-22.538029157811199
20
-81.651341129185397
30
0
40
0.12500000000000266
100
AcDbArc
50
45.000000000008065
51
224.9999999999942
0
LINE
5
137
100
AcDbEntity
8
0
100
AcDbLine
10
-22.44964081016289
20
-81.562952781537064
30
0
11
-22.189020972409697
21
-81.562952781537064
31
0
0
ARC
5
138
100
AcDbEntity
8
0
100
AcDbCircle
10
-22.100632624761385
20
-81.651341129185397
30
0
40
0.12500000000000266
100
AcDbArc
50
-45
51
134.99999999999309
0
LINE
5
139
100
AcDbEntity
8
0
100
AcDbLine
10
-22.012244277113066
20
-81.739729476833716
30
0
11
-22.012244277113087
21
-84.386176086240383
31
0
0
ARC
5
140
100
AcDbEntity
8
0
100
AcDbCircle
10
-27.267299291428046
20
-93.09300779585206
30
0
40
0.12500000000000069
100
AcDbArc
50
-45.000000000009209
51
134.99999999999079
0
LINE
5
141
100
AcDbEntity
8
0
100
AcDbLine
10
-27.178910943779741
20
-93.181396143500393
30
0
11
-27.178910943779737
21
-93.442015981253533
31
0
0
ARC
5
142
100
AcDbEntity
8
0
100
AcDbCircle
10
-27.267299291428042
20
-93.530404328901867
30
0
40
0.12500000000000069
100
AcDbArc
50
-135.0000000000023
51
45.000000000009209
0
LINE
5
143
100
AcDbEntity
8
0
100
AcDbLine
10
-27.355687639076368
20
-93.618792676550186
30
0
11
-30.002134248483095
21
-93.6187926765502
31
0
0
ARC
5
144
100
AcDbEntity
8
0
100
AcDbCircle
10
-30.090522596131414
20
-93.530404328901867
30
0
40
0.12499999999999278
100
AcDbArc
50
134.99999999999886
51
314.99999879258513
0
LINE
5
145
100
AcDbEntity
8
0
100
AcDbLine
10
-30.17891094377973
20
-93.442015981253547
30
0
11
-30.178910943779726
21
-93.181396143500365
31
0
0
ARC
5
146
100
AcDbEntity
8
0
100
AcDbCircle
10
-30.090522596131422
20
-93.09300779585206
30
0
40
0.12499999999999674
100
AcDbArc
50
45.000000000002302
51
225
0
LINE
5
147
100
AcDbEntity
8
0
100
AcDbLine
10
-30.00213424848311
20
-93.004619448203741
30
0
11
-27.355687639076351
21
-93.004619448203727
31
0
0
ARC
5
148
100
AcDbEntity
8
0
100
AcDbCircle
10
-35.93396595809471
20
-93.09300779585206
30
0
40
0.12499999999998883
100
AcDbArc
50
-45
51
135.0000000000023
0
LINE
5
149
100
AcDbEntity
8
0
100
AcDbLine
10
-35.845577610446405
20
-93.181396143500365
30
0
11
-35.845577610446398
21
-93.442015981253562
31
0
0
ARC
5
150
100
AcDbEntity
8
0
100
AcDbCircle
10
-35.93396595809471
20
-93.530404328901881
30
0
40
0.12499999999998883
100
AcDbArc
50
-135.00000000000693
51
45.000000000002302
0
LINE
5
151
100
AcDbEntity
8
0
100
AcDbLine
10
-36.022354305743036
20
-93.618792676550186
30
0
11
-38.668800915149752
21
-93.6187926765502
31
0
0
ARC
5
152
100
AcDbEntity
8
0
100
AcDbCircle
10
-38.757189262798086
20
-93.530404328901881
30
0
40
0.12499999999999674
100
AcDbArc
50
134.99999999999542
51
315.0000000000046
0
LINE
5
153
100
AcDbEntity
8
0
100
AcDbLine
10
-38.845577610446391
20
-93.442015981253562
30
0
11
-38.845577610446398
21
-93.181396143500365
31
0
0
ARC
5
154
100
AcDbEntity
8
0
100
AcDbCircle
10
-38.757189262798079
20
-93.09300779585206
30
0
40
0.12500000000000069
100
AcDbArc
50
45.000000000009209
51
224.99999999999537
0
LINE
5
155
100
AcDbEntity
8
0
100
AcDbLine
10
-38.668800915149774
20
-93.004619448203727
30
0
11
-36.022354305743022
21
-93.004619448203755
31
0
0
ARC
5
156
100
AcDbEntity
8
0
100
AcDbCircle
10
-32.538029157811209
20
-84.474564433888744
30
0
40
0.12500000000000464
100
AcDbArc
50
135
51
315.00000000000227
0
LINE
5
157
100
AcDbEntity
8
0
100
AcDbLine
10
-32.626417505459528
20
-84.386176086240425
30
0
11
-32.626417505459514
21
-81.739729476833716
31
0
0
ARC
5
158
100
AcDbEntity
8
0
100
AcDbCircle
10
-32.538029157811209
20
-81.651341129185397
30
0
40
0.12499999999999674
100
AcDbArc
50
45.000000000006906
51
225.0000000000046
0
LINE
5
159
100
AcDbEntity
8
0
100
AcDbLine
10
-32.449640810162897
20
-81.562952781537064
30
0
11
-32.189020972409686
21
-81.562952781537064
31
0
0
ARC
5
160
100
AcDbEntity
8
0
100
AcDbCircle
10
-32.100632624761381
20
-81.651341129185397
30
0
40
0.12499999999998883
100
AcDbArc
50
-44.999999999997712
51
134.99999999999079
0
LINE
5
161
100
AcDbEntity
8
0
100
AcDbLine
10
-32.012244277113069
20
-81.739729476833702
30
0
11
-32.012244277113062
21
-84.386176086240411
31
0
0
ARC
5
162
100
AcDbEntity
8
0
100
AcDbCircle
10
-32.100632624761388
20
-84.47456443388873
30
0
40
0.1250000000000086
100
AcDbArc
50
-134.99999999999079
51
44.999999999997691
0
LINE
5
163
100
AcDbEntity
8
0
100
AcDbLine
10
-32.189020972409693
20
-84.562952781537064
30
0
11
-32.449640810162883
21
-84.562952781537064
31
0
0
ARC
5
164
100
AcDbEntity
8
0
100
AcDbCircle
10
-32.100632624761381
20
-89.807897767222059
30
0
40
0.12500000000000464
100
AcDbArc
50
-134.99999999999309
51
45.000000000006906
0
LINE
5
165
100
AcDbEntity
8
0
100
AcDbLine
10
-32.189020972409693
20
-89.896286114870392
30
0
11
-32.449640810162897
21
-89.896286114870392
31
0
0
ARC
5
166
100
AcDbEntity
8
0
100
AcDbCircle
10
-32.538029157811209
20
-89.807897767222059
30
0
40
0.12499999999998883
100
AcDbArc
50
135
51
314.99999999999307
0
LINE
5
167
100
AcDbEntity
8
0
100
AcDbLine
10
-32.626417505459514
20
-89.719509419573754
30
0
11
-32.626417505459514
21
-87.073062810167045
31
0
0
ARC
5
168
100
AcDbEntity
8
0
100
AcDbCircle
10
-32.538029157811202
20
-86.984674462518726
30
0
40
0.12500000000000464
100
AcDbArc
50
45.000000000006906
51
225.00000000000227
0
LINE
5
169
100
AcDbEntity
8
0
100
AcDbLine
10
-32.44964081016289
20
-86.896286114870392
30
0
11
-32.189020972409693
21
-86.896286114870392
31
0
0
ARC
5
170
100
AcDbEntity
8
0
100
AcDbCircle
10
-32.100632624761381
20
-86.984674462518726
30
0
40
0.12499999999998883
100
AcDbArc
50
-45.000000000002288
51
134.99999999999309
0
LINE
5
171
100
AcDbEntity
8
0
100
AcDbLine
10
-32.012244277113069
20
-87.073062810167045
30
0
11
-32.012244277113069
21
-89.719509419573725
31
0
0
ENDSEC
0
SECTION
2
OBJECTS
0
DICTIONARY
5
C
100
AcDbDictionary
3
ACAD_GROUP
350
D
3
ACAD_MLINESTYLE
350
17
0
DICTIONARY
5
D
100
AcDbDictionary
0
DICTIONARY
5
1A
330
C
100
AcDbDictionary
0
DICTIONARY
5
17
100
AcDbDictionary
0
ENDSEC
0
EOF
